Statistiche fantacalcio di BASSI Davide

Le statistiche del fantacalcio di Bassi Davide nell’anno 2014-2015 con gol, presenze, ammonizioni, espulsioni, grafici e torte dei voti.

Foto di BASSI Davide
3

Medie anno 2014-2015

  • FantaMedia voto3.75
  • Media voto5.86
  • Presenze7
  • Gol0
  • Gol subiti17
  • Assist0
  • Ammonizioni0
  • Espulsioni0
  • Rigori parati0
  • Rigori sbagliati0
  • Gol decisivi0
  • Autogol0

La torta dei voti

La torta dei fantavoti

Statistiche anni precedenti

Stagione Sq P FM MV Gl Gl dec As Am Es Au GS RS RP
Anno 2007-2008 EMPOLI 17 4.35 5.76 0 0 0 0 0 0 27 0 1
Anno 2006-2007 EMPOLI 8 4.94 6.31 0 0 0 0 0 0 12 0 0

Tabella dei voti

G FV V Gl Gl dec As Am Es Au GS RS RP $$
1-----------8
2-----------8
3-----------7
4-----------7
5-----------7
6-----------6
756------1--7
81.55.5------4--6
936------3--5
103.55.5------2--5
11-----------5
12-----------5
13-----------5
14-----------5
15-----------4
16-----------4
17-----------4
18-----------4
19-----------4
20-----------4
21-----------4
22-----------4
23-----------4
24-----------4
25-----------4
26-----------4
27-----------4
28-----------4
29-----------4
30-----------4
31-----------4
32-----------4
33-----------4
346----------5
35-----------3
363.55.5------2--3
3767------1--5
381.55.5------4--4

Andamento voti

Andamento quotazione