Statistiche fantacalcio di BASSI Davide

Le statistiche del fantacalcio di Bassi Davide nell’anno 2007-2008 con gol, presenze, ammonizioni, espulsioni, grafici e torte dei voti.

Foto di BASSI Davide
2

Medie anno 2007-2008

  • FantaMedia voto4.35
  • Media voto5.76
  • Presenze17
  • Gol0
  • Gol subiti27
  • Assist0
  • Ammonizioni0
  • Espulsioni0
  • Rigori parati1
  • Rigori sbagliati0
  • Gol decisivi0
  • Autogol0

La torta dei voti

La torta dei fantavoti

Statistiche anni precedenti

Stagione Sq P FM MV Gl Gl dec As Am Es Au GS RS RP
Anno 2006-2007 EMPOLI 8 4.94 6.31 0 0 0 0 0 0 12 0 0

Tabella dei voti

G FV V Gl Gl dec As Am Es Au GS RS RP $$
1-----------12
2-----------12
3-----------11
4-----------10
5-----------10
6-----------9
7-----------8
8-----------7
9-----------7
10-----------6
1146------2--6
1225------3--5
1366---------6
14-----------6
15-----------6
16-----------6
17-----------6
18-----------5
19-----------5
2046------2--5
215.56.5------1--6
226.56.5---------7
234.55.5------1--8
24107--------111
253.55.5------2--11
263.55.5------2--10
2725------3--9
281.55.5------4--8
2966---------9
3035------2--9
3135------2--8
32-----------8
33-----------8
34-----------8
35-----------7
36-----------7
374.56.5------2--7
384.55.5------1--8

Andamento voti

Andamento quotazione