Statistiche fantacalcio di BASSI Davide

Le statistiche del fantacalcio di Bassi Davide nell’anno 2006-2007 con gol, presenze, ammonizioni, espulsioni, grafici e torte dei voti.

Foto di BASSI Davide
4

Medie anno 2006-2007

  • FantaMedia voto4.94
  • Media voto6.31
  • Presenze8
  • Gol0
  • Gol subiti12
  • Assist0
  • Ammonizioni0
  • Espulsioni0
  • Rigori parati0
  • Rigori sbagliati0
  • Gol decisivi0
  • Autogol0

La torta dei voti

La torta dei fantavoti

Statistiche anni precedenti

Nessuna statistica presente

Tabella dei voti

G FV V Gl Gl dec As Am Es Au GS RS RP $$
1-----------1
2-----------1
3-----------1
4-----------1
5-----------1
6-----------1
7-----------1
8-----------1
9-----------1
10-----------1
11-----------1
12-----------1
13-----------1
14-----------1
15-----------1
166----------1
17-----------1
18-----------1
19-----------1
20-----------1
21-----------1
22-----------1
23-----------1
24-----------1
25-----------1
26-----------1
27-----------1
28-----------1
29-----------1
30-----------1
3177---------1
326.56.5---------1
336.56.5---------1
3436------3--1
355.56.5------1--1
364.56.5------2--1
372.55.5------3--1
3836------3--1

Andamento voti

Andamento quotazione