Statistiche fantacalcio di CAPONE Andrea

Le statistiche del fantacalcio di Capone Andrea nell’anno 2005-2006 con gol, presenze, ammonizioni, espulsioni, grafici e torte dei voti.

Foto di CAPONE Andrea
2

Medie anno 2005-2006

  • FantaMedia voto6.24
  • Media voto5.83
  • Presenze24
  • Gol3
  • Gol subiti0
  • Assist3
  • Ammonizioni4
  • Espulsioni0
  • Rigori parati0
  • Rigori sbagliati0
  • Gol decisivi0
  • Autogol0

La torta dei voti

La torta dei fantavoti

Statistiche anni precedenti

Stagione Sq P FM MV Gl Gl dec As Am Es Au GS RS RP
Anno 2004-2005 Cagliari 0 - - 0 0 0 0 0 0 0 0 0

Tabella dei voti

G FV V Gl Gl dec As Am Es Au GS RS RP $$
15.55.5---------1
26.56--11-----1
366---------1
48.561--1-----1
566---------1
655---------1
7-----------1
866---------1
96.56.5---------1
106.56.5---------1
114.55---1-----1
125.55.5---------1
13-----------1
14-----------1
15-----------1
16-----------1
1755---------1
1876--1------2
195.55.5---------2
2066---------3
217.56.5--1------4
225.55.5---------4
23-----------4
24-----------4
255.55.5---------4
2666---------4
27-----------4
28-----------4
296----------5
30-----------4
315.56---1-----5
32-----------5
33-----------4
34-----------4
3566---------5
369.56.51--------7
3755---------6
389.56.51--------8

Andamento voti

Andamento quotazione